  0
SECTION
  2
HEADER
  9
$ACADVER
  1
AC1009
  9
$INSBASE
 10
0.0
 20
0.0
 30
0.0
  9
$EXTMIN
 10
-2.620388
 20
-3.552029
 30
0.0
  9
$EXTMAX
 10
211.390546
 20
79.437523
 30
0.0
  9
$LIMMIN
 10
0.0
 20
0.0
  9
$LIMMAX
 10
1680.0
 20
1320.0
  9
$ORTHOMODE
 70
     1
  9
$REGENMODE
 70
     1
  9
$FILLMODE
 70
     1
  9
$QTEXTMODE
 70
     0
  9
$MIRRTEXT
 70
     1
  9
$DRAGMODE
 70
     2
  9
$LTSCALE
 40
8.0
  9
$OSMODE
 70
     0
  9
$ATTMODE
 70
     1
  9
$TEXTSIZE
 40
17.987086
  9
$TRACEWID
 40
0.25
  9
$TEXTSTYLE
  7
STANDARD
  9
$CLAYER
  8
0
  9
$CELTYPE
  6
CONTINUOUS
  9
$CECOLOR
 62
   256
  9
$DIMSCALE
 40
24.0
  9
$DIMASZ
 40
0.125
  9
$DIMEXO
 40
0.0625
  9
$DIMDLI
 40
0.38
  9
$DIMRND
 40
0.0
  9
$DIMDLE
 40
0.0
  9
$DIMEXE
 40
0.18
  9
$DIMTP
 40
0.0
  9
$DIMTM
 40
0.0
  9
$DIMTXT
 40
0.125
  9
$DIMCEN
 40
0.125
  9
$DIMTSZ
 40
0.0
  9
$DIMTOL
 70
     0
  9
$DIMLIM
 70
     0
  9
$DIMTIH
 70
     1
  9
$DIMTOH
 70
     1
  9
$DIMSE1
 70
     0
  9
$DIMSE2
 70
     0
  9
$DIMTAD
 70
     0
  9
$DIMZIN
 70
     0
  9
$DIMBLK
  1

  9
$DIMASO
 70
     1
  9
$DIMSHO
 70
     0
  9
$DIMPOST
  1

  9
$DIMAPOST
  1

  9
$DIMALT
 70
     0
  9
$DIMALTD
 70
     2
  9
$DIMALTF
 40
25.4
  9
$DIMLFAC
 40
1.0
  9
$DIMTOFL
 70
     0
  9
$DIMTVP
 40
0.0
  9
$DIMTIX
 70
     0
  9
$DIMSOXD
 70
     0
  9
$DIMSAH
 70
     0
  9
$DIMBLK1
  1

  9
$DIMBLK2
  1

  9
$DIMSTYLE
  2
STANDARD
  9
$DIMCLRD
 70
     0
  9
$DIMCLRE
 70
     0
  9
$DIMCLRT
 70
     0
  9
$DIMTFAC
 40
1.0
  9
$DIMGAP
 40
0.09
  9
$LUNITS
 70
     2
  9
$LUPREC
 70
     4
  9
$SKETCHINC
 40
11.13172
  9
$FILLETRAD
 40
0.0
  9
$AUNITS
 70
     0
  9
$AUPREC
 70
     4
  9
$MENU
  1
acad
  9
$ELEVATION
 40
0.0
  9
$PELEVATION
 40
0.0
  9
$THICKNESS
 40
0.0
  9
$LIMCHECK
 70
     0
  9
$BLIPMODE
 70
     1
  9
$CHAMFERA
 40
0.0
  9
$CHAMFERB
 40
0.0
  9
$SKPOLY
 70
     1
  9
$TDCREATE
 40
2449465.696275
  9
$TDUPDATE
 40
2449465.696275
  9
$TDINDWG
 40
0.0
  9
$TDUSRTIMER
 40
0.0
  9
$USRTIMER
 70
     1
  9
$ANGBASE
 50
0.0
  9
$ANGDIR
 70
     0
  9
$PDMODE
 70
     0
  9
$PDSIZE
 40
0.0
  9
$PLINEWID
 40
0.0
  9
$COORDS
 70
     2
  9
$SPLFRAME
 70
     0
  9
$SPLINETYPE
 70
     6
  9
$SPLINESEGS
 70
     8
  9
$ATTDIA
 70
     0
  9
$ATTREQ
 70
     1
  9
$HANDLING
 70
     1
  9
$HANDSEED
  5
8E
  9
$SURFTAB1
 70
     6
  9
$SURFTAB2
 70
     6
  9
$SURFTYPE
 70
     6
  9
$SURFU
 70
     6
  9
$SURFV
 70
     6
  9
$UCSNAME
  2

  9
$UCSORG
 10
0.0
 20
0.0
 30
0.0
  9
$UCSXDIR
 10
1.0
 20
0.0
 30
0.0
  9
$UCSYDIR
 10
0.0
 20
1.0
 30
0.0
  9
$PUCSNAME
  2

  9
$PUCSORG
 10
0.0
 20
0.0
 30
0.0
  9
$PUCSXDIR
 10
1.0
 20
0.0
 30
0.0
  9
$PUCSYDIR
 10
0.0
 20
1.0
 30
0.0
  9
$USERI1
 70
     0
  9
$USERI2
 70
     0
  9
$USERI3
 70
     0
  9
$USERI4
 70
     0
  9
$USERI5
 70
     0
  9
$USERR1
 40
0.0
  9
$USERR2
 40
0.0
  9
$USERR3
 40
0.0
  9
$USERR4
 40
0.0
  9
$USERR5
 40
0.0
  9
$WORLDVIEW
 70
     1
  9
$SHADEDGE
 70
     3
  9
$SHADEDIF
 70
    70
  9
$TILEMODE
 70
     1
  9
$MAXACTVP
 70
    48
  9
$PLIMCHECK
 70
     0
  9
$PEXTMIN
 10
1.000000E+020
 20
1.000000E+020
 30
1.000000E+020
  9
$PEXTMAX
 10
-1.000000E+020
 20
-1.000000E+020
 30
-1.000000E+020
  9
$PLIMMIN
 10
0.0
 20
0.0
  9
$PLIMMAX
 10
12.0
 20
9.0
  9
$UNITMODE
 70
     0
  9
$VISRETAIN
 70
     0
  9
$PLINEGEN
 70
     0
  9
$PSLTSCALE
 70
     0
  0
ENDSEC
  0
SECTION
  2
TABLES
  0
TABLE
  2
VPORT
 70
     2
  0
VPORT
  2
*ACTIVE
 70
     0
 10
0.0
 20
0.0
 11
1.0
 21
1.0
 12
104.385079
 22
68.365287
 13
0.0
 23
0.0
 14
12.0
 24
12.0
 15
24.0
 25
24.0
 16
0.0
 26
0.0
 36
1.0
 17
0.0
 27
0.0
 37
0.0
 40
143.834632
 41
1.882514
 42
50.0
 43
0.0
 44
0.0
 50
0.0
 51
0.0
 71
     0
 72
   100
 73
     1
 74
     1
 75
     0
 76
     0
 77
     0
 78
     0
  0
ENDTAB
  0
TABLE
  2
LTYPE
 70
     1
  0
LTYPE
  2
CONTINUOUS
 70
     0
  3
Solid line
 72
    65
 73
     0
 40
0.0
  0
ENDTAB
  0
TABLE
  2
LAYER
 70
     1
  0
LAYER
  2
0
 70
     0
 62
     7
  6
CONTINUOUS
  0
ENDTAB
  0
TABLE
  2
STYLE
 70
     1
  0
STYLE
  2
STANDARD
 70
     0
 40
0.0
 41
1.0
 50
0.0
 71
     0
 42
17.987086
  3
txt
  4

  0
ENDTAB
  0
TABLE
  2
VIEW
 70
     0
  0
ENDTAB
  0
TABLE
  2
UCS
 70
     0
  0
ENDTAB
  0
TABLE
  2
APPID
 70
     1
  0
APPID
  2
ACAD
 70
     0
  0
ENDTAB
  0
TABLE
  2
DIMSTYLE
 70
     1
  0
DIMSTYLE
  2
STANDARD
 70
     0
  3

  4

  5

  6

  7

 40
1.0
 41
0.18
 42
0.0625
 43
0.38
 44
0.18
 45
0.0
 46
0.0
 47
0.0
 48
0.0
140
0.18
141
0.09
142
0.0
143
25.4
144
1.0
145
0.0
146
1.0
147
0.09
 71
     0
 72
     0
 73
     1
 74
     1
 75
     0
 76
     0
 77
     0
 78
     0
170
     0
171
     2
172
     0
173
     0
174
     0
175
     0
176
     0
177
     0
178
     0
  0
ENDTAB
  0
ENDSEC
  0
SECTION
  2
BLOCKS
  0
BLOCK
  8
0
  2
$MODEL_SPACE
 70
     0
 10
0.0
 20
0.0
 30
0.0
  3
$MODEL_SPACE
  1

  0
ENDBLK
  5
1F
  8
0
  0
BLOCK
 67
     1
  8
0
  2
$PAPER_SPACE
 70
     0
 10
0.0
 20
0.0
 30
0.0
  3
$PAPER_SPACE
  1

  0
ENDBLK
  5
1D
 67
     1
  8
0
  0
ENDSEC
  0
SECTION
  2
ENTITIES
  0
LINE
  5
21
  8
0
 10
0.0
 20
75.885494
 30
0.0
 11
15.26807
 21
76.684468
 31
0.0
  0
LINE
  5
22
  8
0
 10
-0.384739
 20
37.942747
 30
0.0
 11
1.858703
 21
75.982759
 31
0.0
  0
LINE
  5
23
  8
0
 10
7.718545
 20
76.289403
 30
0.0
 11
6.848628
 21
37.942747
 31
0.0
  0
LINE
  5
24
  8
0
 10
-2.620388
 20
37.942747
 30
0.0
 11
0.0
 21
75.885494
 31
0.0
  0
LINE
  5
25
  8
0
 10
7.618772
 20
71.891304
 30
0.0
 11
66.345355
 21
73.159543
 31
0.0
  0
LINE
  5
26
  8
0
 10
60.749304
 20
55.670057
 30
0.0
 11
59.380755
 21
37.942747
 31
0.0
  0
LINE
  5
27
  8
0
 10
79.74992
 20
37.942747
 30
0.0
 11
80.279033
 21
53.026928
 31
0.0
  0
ARC
  5
28
  8
0
 10
210.391519
 20
78.437541
 30
0.0
 40
1.0
 50
2.528346
 51
90.344203
  0
LINE
  5
29
  8
0
 10
204.350948
 20
79.40127
 30
0.0
 11
210.385512
 21
79.437523
 31
0.0
  0
LINE
  5
2A
  8
0
 10
204.862915
 20
78.003035
 30
0.0
 11
204.350948
 21
79.40127
 31
0.0
  0
ARC
  5
2B
  8
0
 10
206.50234
 20
75.996893
 30
0.0
 40
2.0
 50
1.534155
 51
89.785842
  0
ARC
  5
2C
  8
0
 10
202.552394
 20
66.690548
 30
0.0
 40
1.0
 50
0.0
 51
123.9199
  0
LINE
  5
2D
  8
0
 10
189.05971
 20
67.950417
 30
0.0
 11
190.329055
 21
64.078617
 31
0.0
  0
LINE
  5
2E
  8
0
 10
187.855106
 20
68.719893
 30
0.0
 11
194.617855
 21
75.076196
 31
0.0
  0
ARC
  5
2F
  8
0
 10
194.275419
 20
75.440528
 30
0.0
 40
0.5
 50
313.225467
 51
90.469964
  0
LINE
  5
30
  8
0
 10
201.994361
 20
67.520366
 30
0.0
 11
194.46342
 21
62.455986
 31
0.0
  0
ARC
  5
31
  8
0
 10
150.005793
 20
75.077402
 30
0.0
 40
0.5
 50
90.469964
 51
137.027976
  0
ARC
  5
32
  8
0
 10
134.310609
 20
68.75684
 30
0.0
 40
0.5
 50
270.495501
 51
318.663522
  0
LINE
  5
33
  8
0
 10
134.686031
 20
68.426601
 30
0.0
 11
140.172252
 21
74.663422
 31
0.0
  0
ARC
  5
34
  8
0
 10
139.79683
 20
74.993662
 30
0.0
 40
0.5
 50
318.663522
 51
90.469964
  0
ARC
  5
35
  8
0
 10
144.197196
 20
68.842343
 30
0.0
 40
0.5
 50
137.027976
 51
270.495501
  0
LINE
  5
36
  8
0
 10
149.63995
 20
75.418223
 30
0.0
 11
143.831353
 21
69.183164
 31
0.0
  0
ARC
  5
37
  8
0
 10
104.000483
 20
68.507616
 30
0.0
 40
0.5
 50
270.495501
 51
28.023439
  0
LINE
  5
38
  8
0
 10
104.441861
 20
68.742532
 30
0.0
 11
101.153879
 21
74.920228
 31
0.0
  0
ARC
  5
39
  8
0
 10
100.712501
 20
74.685312
 30
0.0
 40
0.5
 50
28.023439
 51
90.469964
  0
ARC
  5
3A
  8
0
 10
108.736966
 20
74.738891
 30
0.0
 40
0.5
 50
90.469964
 51
204.867582
  0
LINE
  5
3B
  8
0
 10
108.283325
 20
74.528629
 30
0.0
 11
111.14702
 21
68.350176
 31
0.0
  0
ARC
  5
3C
  8
0
 10
111.600661
 20
68.560437
 30
0.0
 40
0.5
 50
204.867582
 51
270.495501
  0
LINE
  5
3D
  8
0
 10
84.388301
 20
67.837984
 30
0.0
 11
104.004807
 21
68.007635
 31
0.0
  0
ARC
  5
3E
  8
0
 10
72.47325
 20
74.453676
 30
0.0
 40
0.5
 50
90.469964
 51
243.061822
  0
ARC
  5
3F
  8
0
 10
67.369143
 20
73.077801
 30
0.0
 40
1.0
 50
65.796068
 51
162.257064
  0
LINE
  5
40
  8
0
 10
60.749304
 20
55.670057
 30
0.0
 11
66.416709
 21
73.382547
 31
0.0
  0
LINE
  5
41
  8
0
 10
100.7084
 20
75.185295
 30
0.0
 11
72.469149
 21
74.95366
 31
0.0
  0
LINE
  5
42
  8
0
 10
72.246735
 20
74.007928
 30
0.0
 11
84.388301
 21
67.837984
 31
0.0
  0
LINE
  5
43
  8
0
 10
67.779128
 20
73.989892
 30
0.0
 11
82.983391
 21
67.155572
 31
0.0
  0
LINE
  5
44
  8
0
 10
111.604985
 20
68.060456
 30
0.0
 11
134.314933
 21
68.256859
 31
0.0
  0
LINE
  5
45
  8
0
 10
139.792729
 20
75.493645
 30
0.0
 11
108.732865
 21
75.238874
 31
0.0
  0
LINE
  5
46
  8
0
 10
206.509815
 20
77.996879
 30
0.0
 11
121.158111
 21
78.310326
 31
0.0
  0
LINE
  5
47
  8
0
 10
144.20152
 20
68.342362
 30
0.0
 11
187.855106
 21
68.719893
 31
0.0
  0
LINE
  5
48
  8
0
 10
194.271318
 20
75.940511
 30
0.0
 11
150.001692
 21
75.577385
 31
0.0
  0
ARC
  5
49
  8
0
 10
202.552394
 20
9.194946
 30
0.0
 40
1.0
 50
236.0801
 51
0.0
  0
LINE
  5
4A
  8
0
 10
189.05971
 20
7.935077
 30
0.0
 11
190.329055
 21
11.806877
 31
0.0
  0
LINE
  5
4B
  8
0
 10
194.46342
 20
13.429508
 30
0.0
 11
201.994361
 21
8.365128
 31
0.0
  0
LINE
  5
4C
  8
0
 10
204.862915
 20
-2.117541
 30
0.0
 11
204.350948
 21
-3.515776
 31
0.0
  0
LINE
  5
4D
  8
0
 10
204.350948
 20
-3.515776
 30
0.0
 11
210.385512
 21
-3.552029
 31
0.0
  0
ARC
  5
4E
  8
0
 10
210.391519
 20
-2.552047
 30
0.0
 40
1.0
 50
269.655797
 51
357.471654
  0
ARC
  5
4F
  8
0
 10
206.50234
 20
-0.111399
 30
0.0
 40
2.0
 50
270.214158
 51
358.465845
  0
ARC
  5
50
  8
0
 10
194.275419
 20
0.444966
 30
0.0
 40
0.5
 50
269.530036
 51
46.774533
  0
LINE
  5
51
  8
0
 10
187.855106
 20
7.165601
 30
0.0
 11
194.617855
 21
0.809298
 31
0.0
  0
ARC
  5
52
  8
0
 10
134.310609
 20
7.128654
 30
0.0
 40
0.5
 50
41.336478
 51
89.504499
  0
ARC
  5
53
  8
0
 10
144.197196
 20
7.043151
 30
0.0
 40
0.5
 50
89.504499
 51
222.972024
  0
ARC
  5
54
  8
0
 10
150.005793
 20
0.808092
 30
0.0
 40
0.5
 50
222.972024
 51
269.530036
  0
ARC
  5
55
  8
0
 10
139.79683
 20
0.891832
 30
0.0
 40
0.5
 50
269.530036
 51
41.336478
  0
LINE
  5
56
  8
0
 10
140.172252
 20
1.222072
 30
0.0
 11
134.686031
 21
7.458894
 31
0.0
  0
LINE
  5
57
  8
0
 10
149.63995
 20
0.467271
 30
0.0
 11
143.831353
 21
6.70233
 31
0.0
  0
ARC
  5
58
  8
0
 10
104.000483
 20
7.377878
 30
0.0
 40
0.5
 50
331.976561
 51
89.504499
  0
ARC
  5
59
  8
0
 10
111.600661
 20
7.325057
 30
0.0
 40
0.5
 50
89.504499
 51
155.132418
  0
LINE
  5
5A
  8
0
 10
104.004807
 20
7.877859
 30
0.0
 11
84.388301
 21
8.04751
 31
0.0
  0
LINE
  5
5B
  8
0
 10
73.181013
 20
25.031576
 30
0.0
 11
75.375888
 21
25.031576
 31
0.0
  0
LINE
  5
5C
  8
0
 10
75.375888
 20
25.031576
 30
0.0
 11
75.375888
 21
14.049775
 31
0.0
  0
LINE
  5
5D
  8
0
 10
75.375888
 20
14.049775
 30
0.0
 11
73.181013
 21
14.049775
 31
0.0
  0
LINE
  5
5E
  8
0
 10
73.181013
 20
14.049775
 30
0.0
 11
73.181013
 21
25.031576
 31
0.0
  0
LINE
  5
5F
  8
0
 10
73.181013
 20
16.861116
 30
0.0
 11
69.159409
 21
15.793438
 31
0.0
  0
LINE
  5
60
  8
0
 10
73.181013
 20
21.868818
 30
0.0
 11
67.802572
 21
21.868818
 31
0.0
  0
LINE
  5
61
  8
0
 10
71.315564
 20
16.365866
 30
0.0
 11
72.039678
 21
12.380542
 31
0.0
  0
LINE
  5
62
  8
0
 10
66.684183
 20
49.542956
 30
0.0
 11
66.684183
 21
26.876519
 31
0.0
  0
LINE
  5
63
  8
0
 10
79.74992
 20
37.942747
 30
0.0
 11
80.279033
 21
22.858566
 31
0.0
  0
LINE
  5
64
  8
0
 10
60.749304
 20
20.215437
 30
0.0
 11
59.380755
 21
37.942747
 31
0.0
  0
LINE
  5
65
  8
0
 10
80.279033
 20
22.858566
 30
0.0
 11
82.983391
 21
8.729922
 31
0.0
  0
ARC
  5
66
  8
0
 10
100.712501
 20
1.200183
 30
0.0
 40
0.5
 50
269.530036
 51
331.976561
  0
ARC
  5
67
  8
0
 10
108.736966
 20
1.146604
 30
0.0
 40
0.5
 50
155.132418
 51
269.530036
  0
ARC
  5
68
  8
0
 10
72.47325
 20
1.431818
 30
0.0
 40
0.5
 50
116.938178
 51
269.530036
  0
ARC
  5
69
  8
0
 10
67.369143
 20
2.807694
 30
0.0
 40
1.0
 50
197.742936
 51
294.203932
  0
LINE
  5
6A
  8
0
 10
72.469149
 20
0.931834
 30
0.0
 11
100.7084
 21
0.700199
 31
0.0
  0
LINE
  5
6B
  8
0
 10
66.684183
 20
26.876519
 30
0.0
 11
71.854177
 21
3.727337
 31
0.0
  0
LINE
  5
6C
  8
0
 10
101.153879
 20
0.965266
 30
0.0
 11
104.441861
 21
7.142962
 31
0.0
  0
LINE
  5
6D
  8
0
 10
84.388301
 20
8.04751
 30
0.0
 11
72.246735
 21
1.877566
 31
0.0
  0
LINE
  5
6E
  8
0
 10
82.983391
 20
8.729922
 30
0.0
 11
67.779128
 21
1.895602
 31
0.0
  0
LINE
  5
6F
  8
0
 10
66.416709
 20
2.502947
 30
0.0
 11
60.749304
 21
20.215437
 31
0.0
  0
LINE
  5
70
  8
0
 10
111.14702
 20
7.535318
 30
0.0
 11
108.283325
 21
1.356865
 31
0.0
  0
LINE
  5
71
  8
0
 10
108.732865
 20
0.64662
 30
0.0
 11
139.792729
 21
0.391849
 31
0.0
  0
LINE
  5
72
  8
0
 10
134.314933
 20
7.628635
 30
0.0
 11
111.604985
 21
7.825038
 31
0.0
  0
LINE
  5
73
  8
0
 10
121.158111
 20
-2.424832
 30
0.0
 11
206.509815
 21
-2.111385
 31
0.0
  0
LINE
  5
74
  8
0
 10
194.271318
 20
-0.055017
 30
0.0
 11
150.001692
 21
0.308109
 31
0.0
  0
LINE
  5
75
  8
0
 10
144.20152
 20
7.543132
 30
0.0
 11
187.855106
 21
7.165601
 31
0.0
  0
LINE
  5
76
  8
0
 10
190.329055
 20
64.078617
 30
0.0
 11
190.329055
 21
11.806877
 31
0.0
  0
LINE
  5
77
  8
0
 10
211.390546
 20
78.481655
 30
0.0
 11
211.390546
 21
-2.596161
 31
0.0
  0
LINE
  5
78
  8
0
 10
69.84144
 20
73.062883
 30
0.0
 11
66.684183
 21
49.542956
 31
0.0
  0
LINE
  5
79
  8
0
 10
208.501623
 20
-0.164945
 30
0.0
 11
208.501623
 21
76.050439
 31
0.0
  0
LINE
  5
7A
  8
0
 10
203.552394
 20
9.194946
 30
0.0
 11
203.552394
 21
66.690548
 31
0.0
  0
LINE
  5
7B
  8
0
 10
194.46342
 20
62.455986
 30
0.0
 11
194.46342
 21
13.429508
 31
0.0
  0
LINE
  5
7C
  8
0
 10
82.983391
 20
67.155572
 30
0.0
 11
80.279033
 21
53.026929
 31
0.0
  0
LINE
  5
7D
  8
0
 10
42.228595
 20
77.785123
 30
0.0
 11
15.26807
 21
76.684468
 31
0.0
  0
LINE
  5
7E
  8
0
 10
7.317121
 20
58.100175
 30
0.0
 11
45.699021
 21
63.833354
 31
0.0
  0
ARC
  5
7F
  8
0
 10
7.360714
 20
37.415621
 30
0.0
 40
0.5
 50
178.700432
 51
181.299568
  0
LINE
  5
80
  8
0
 10
7.305873
 20
17.786999
 30
0.0
 11
44.377679
 21
12.249512
 31
0.0
  0
LINE
  5
81
  8
0
 10
15.26807
 20
-0.798974
 30
0.0
 11
42.228595
 21
-1.899629
 31
0.0
  0
LINE
  5
82
  8
0
 10
0.0
 20
0.0
 30
0.0
 11
15.26807
 21
-0.798974
 31
0.0
  0
LINE
  5
83
  8
0
 10
-2.620388
 20
37.942747
 30
0.0
 11
0.0
 21
0.0
 31
0.0
  0
LINE
  5
84
  8
0
 10
-0.384739
 20
37.942747
 30
0.0
 11
1.858703
 21
-0.097265
 31
0.0
  0
LINE
  5
85
  8
0
 10
7.718545
 20
-0.403909
 30
0.0
 11
6.848628
 21
37.942747
 31
0.0
  0
LINE
  5
86
  8
0
 10
44.377679
 20
12.249512
 30
0.0
 11
45.699021
 21
63.833354
 31
0.0
  0
LINE
  5
87
  8
0
 10
7.618772
 20
3.99419
 30
0.0
 11
66.345355
 21
2.725951
 31
0.0
  0
LINE
  5
88
  8
0
 10
121.158111
 20
78.310326
 30
0.0
 11
42.228595
 21
77.785123
 31
0.0
  0
LINE
  5
89
  8
0
 10
42.228595
 20
-1.899629
 30
0.0
 11
121.158111
 21
-2.424832
 31
0.0
  0
ENDSEC
  0
EOF
